Make your own free website on Tripod.com
Tabs to...
"She's My Alcatraz"

Intro
------------------------------------------------
------------------------------------------------
------------------------------------------------
----------------4-------------------------------
---2---5---2-------5---7----------------------
-----------------------------4---5---7---5----

or

------------------------------------------------
------------------------------------------------
------------------------------------------------
------------------------------------------------
------5-------9---5---7-----------------------
--7-------7----------------4---5---7---5-----

Verse
B, A, B, A, G, A, B, F# / A
B, A, B, A, G, A, E

Chorus
B, A, E  x2
B, A, G, F#, E, B, A

Repeat Intro

Verse
B, A, B, A, G, A, B, F# / A
B, A, B, A, G, A, E

Chorus
B, A, E  X2
B, A, G, F#, E, B, A

Intro  x3

Middle
G(high), D, A, E  x3

B, A, E x7 played over intro

Repeat Chorus (end on B)

Transcribed by steven99@richardson99100.freeserve.co.uk.