Make your own free website on Tripod.com
Tabs to...
"...And I Will Be With You"

Chords:
A- 5776XX
D- X577XX
E- 022XXX (TYPE 2=X799XX)
G#- 466XXX
C#- X466XX
B- 799XXX
F#- 244XXX

Intro-
   G#   A    C#  D   G#   A
e-------------------------------------------------------------
b-------------------------------------------------------------
g-------6----6---7--------6-----------------------------------
d---6---7----6---7----6---7-----------------------------------
a---6---7----4---5----6---7-----------------------------------
e---4---5-------------4---5-----------------------------------


     A                              E
Well let me tell you honey how it's gonna be,
d-----------------------------------9-9-11--9------9-9-11--9--
a-----7--7--9---7----7--7--9--7-----7-7-7---7------7-7-7---7--
e-----5--5--5---5----5--5--5--5-------------------------------

E                                     A
You're gonna sit around all night and watch TV:
d------9-9---11--9----9-9---11--9------------------------------
a------7-7---7---7----7-7---7---7-----7--7--9---7----7--7--9--7
e-------------------------------------5--5--5---5----5--5--5--5

A               D
"American Ninja II"
d---------------7--7--9--7--7--7--9--7-------------------------
a-7-7-9-7-7-7-9-5--5--5--5--5--5--5--5-------------------------
e-5-5-5-5-5-5-5------------------------------------------------

    G# A  C#  D   G#  A      G# A  C#  D   G#  A
...and I will be with you

And if sombody tries to call up on the phone,
You'll let it ring and just pretend that no one's home,
You'll know what to do,
...and I will be with you

E
Going all the way kid. No need to fake it.
a-2-2-4--2----2-2-4--2-5-5--4--4--2----0-----------------------
e-0-0-0--0----0-0-0--0-0-0--0--0--0----0-----------------------

E
Half-drunk, half-naked, half-awake we'll make it
a-2-2-4--2----2-2-4--2--5-5----4---4----2----0-----------------
e-0-0-0--0----0-0-0--0--0-0----0---0----0----0-----------------

D  C#  B A  G# F#  E
Alright
The world is so dumb it hurts. Let's overcome it,
Escape from it, be it or become it all night.
All right.

You'll pass out on the couch, then wake up with a jerk,
and stumble to the phone and call in sick to work,

A                 D       B             E
I'll call in sick too, so I can be with you.
If we can keep it up like this you know it won't be long,
Untill those golden years start rolling along.
You'll be rolling too, ...and I will be with you.

       A      E      A D
...And I will be with you

Transcribed by slaphappyrecords@hotmail.com.